Обзор Презентация
Свеча
Дружки
Свеча - Дружки

G - C | Em - D ||

e]-----3---0----3----------------3---0------3-----2-------
h]--3--------3-----3----------3---------3------3----------
g]--------------------2-----------------------------2-----
D]--------------2---------------------------0-------0-----
A]---------3-------------------------3--------------------
E]--3-------------------------3---------------------------


G ------- C ----------------- Em ------ D
Я зажег свою свечу, но не вспыхнула она,
G ----------- C --------------- Em ------- D
Я подумал - "Полечу" - но были ноги да земля,
----- C --------- G -------- D ------------ Em
Я пытался найти свет в комнате, была где тьма,
C --------- G ------------ D ------- Em
Я шарил выключатель, но была одна стена.


Соло: C G | D Em - 2р.

e]-----3s5------3--3---0-------------
h]--3-------3---3--3------3---1--0---
g]--------------0--0-----------------
D]------------------------0----------
A]--------------3--------------------
E]-----------------3-------------0---


Тогда я посадил зерно, но забыл его обнять,
И когда открыл я дверь, то пришлось ее взломать.
Я пытался найти свет в комнате, была где тьма,
Я шарил выключатель, но была одна стена.



A --------- D ----------------- F#m ------------ E
Я прождал немалый срок, когда понял что-то вновь,
A ------------- D ------------ F#m ------- E
За этой скоростью дорог, я потерял Твою любовь.
---- D ---------- A ----------- E ----------- F#m
Я пытался найти вход, там, где просто его нет,
D ---------- A -------- E ----------- F#m
Я шарил выключатель, и забыл про Божий свет.

-- D - A ---- E ---- F#m -- D - A - E -- F#m
...забыл про Божий свет.....забыл...забыл
-- D - A ---- E ---- F#m -- D - A - E -- F#m
...забыл про Божий свет.....забыл...забыл



G ------- C ----------------- Em ------ D
Я зажег свою свечу, но не вспыхнула она,
G ------- C -------------- Em --------- D
Я подумал: Полечу. Но полетела лишь струна
----- C --------- G ----------- D --------- Em
Я пытался найти вход, там, где просто его нет
--- C ------- G -------- D ------------ Em
Я шарил выключатель, и забыл про Божий свет

https://holychords.pro/44894

229 просмотров 125 прослушиваний 21 скачиваний
0

Комментарии к песне

Комментариев нет

Форма входа

Альбомы исполнителя

Герасим - Нарисую
Дружки
2018 альбом
Зажги Меня
Дружки
2009 альбом
Ракета
Дружки
2009 альбом
Greatest Hits
Дружки
2005 альбом
Иди-лети
Дружки
2000 альбом
Октябрь 10
Дружки
1997 альбом
Лучшие Песни
Дружки
1996 альбом
Война, Победа и Свобода
Дружки
альбом

Статистика пользователей

Онлайн всего: 546
Гостей: 491
Пользователей: 55