Newsboys
презентация

In Christ Alone (Tab)

Newsboys

Newsboys - In Christ Alone (Tab)

In Christ Alone (Tab)

Обзор Презентация

e|------------------------0--2-0-------2-0--------|
h|---0--3-3------0-3----------3-0-------3-3--|
g|-2----------2---------------------------------|
d|-----------------------------------------------|
a|-----------------------------------------------|
e|-----------------------------------------------|

e|-----------------------0--2-0-------2-0-------|
h|---0--3-3------0-3----------3-0------3-3--|
g|-2-----------2-------------------------------|
d|----------------------------------------------|
a|----------------------------------------------|
e|----------------------------------------------|

e|----2-5-7--7-5-------------10-9-7---7-5------|
h|-3-----------------7-5----5------------------7-5--|
g|-----------------------------------------------|
d|-----------------------------------------------|
a|-----------------------------------------------|
e|-----------------------------------------------|

e|-----------------------0----2-0------2-0-------|
h|---0--3-3------0-3----------3-0------3-3--|
g|-2-----------2-------------------------------|
d|----------------------------------------------|
a|----------------------------------------------|
e|----------------------------------------------|